  0
SECTION
  2
HEADER
  9
$ACADVER
  1
AC1015
  9
$ACADMAINTVER
 70
     6
  9
$DWGCODEPAGE
  3
ANSI_1254
  9
$INSBASE
 10
0.0
 20
0.0
 30
0.0
  9
$EXTMIN
 10
0.0
 20
0.0
 30
0.0
  9
$EXTMAX
 10
279.4
 20
215.9
 30
0.0
  9
$LIMMIN
 10
0.0
 20
0.0
  9
$LIMMAX
 10
279.4
 20
215.9
  9
$ORTHOMODE
 70
     0
  9
$REGENMODE
 70
     1
  9
$FILLMODE
 70
     1
  9
$QTEXTMODE
 70
     0
  9
$MIRRTEXT
 70
     1
  9
$LTSCALE
 40
1.0
  9
$ATTMODE
 70
     1
  9
$TEXTSIZE
 40
3.5
  9
$TRACEWID
 40
1.0
  9
$TEXTSTYLE
  7
Standard
  9
$CLAYER
  8
0
  9
$CELTYPE
  6
ByLayer
  9
$CECOLOR
 62
   256
  9
$CELTSCALE
 40
1.0
  9
$DISPSILH
 70
     0
  9
$DIMSCALE
 40
1.0
  9
$DIMASZ
 40
3.5
  9
$DIMEXO
 40
1.0
  9
$DIMDLI
 40
3.75
  9
$DIMRND
 40
0.0
  9
$DIMDLE
 40
0.0
  9
$DIMEXE
 40
1.0
  9
$DIMTP
 40
0.0
  9
$DIMTM
 40
0.0
  9
$DIMTXT
 40
3.5
  9
$DIMCEN
 40
2.5
  9
$DIMTSZ
 40
0.0
  9
$DIMTOL
 70
     0
  9
$DIMLIM
 70
     0
  9
$DIMTIH
 70
     1
  9
$DIMTOH
 70
     1
  9
$DIMSE1
 70
     0
  9
$DIMSE2
 70
     0
  9
$DIMTAD
 70
     1
  9
$DIMZIN
 70
     0
  9
$DIMBLK
  1

  9
$DIMASO
 70
     1
  9
$DIMSHO
 70
     1
  9
$DIMPOST
  1

  9
$DIMAPOST
  1

  9
$DIMALT
 70
     0
  9
$DIMALTD
 70
     3
  9
$DIMALTF
 40
0.0393700787
  9
$DIMLFAC
 40
1.0
  9
$DIMTOFL
 70
     1
  9
$DIMTVP
 40
0.0
  9
$DIMTIX
 70
     0
  9
$DIMSOXD
 70
     0
  9
$DIMSAH
 70
     0
  9
$DIMBLK1
  1

  9
$DIMBLK2
  1

  9
$DIMSTYLE
  2
ISO-25
  9
$DIMCLRD
 70
     0
  9
$DIMCLRE
 70
     0
  9
$DIMCLRT
 70
     0
  9
$DIMTFAC
 40
1.0
  9
$DIMGAP
 40
1.524
  9
$DIMJUST
 70
     0
  9
$DIMSD1
 70
     0
  9
$DIMSD2
 70
     0
  9
$DIMTOLJ
 70
     0
  9
$DIMTZIN
 70
     0
  9
$DIMALTZ
 70
     0
  9
$DIMALTTZ
 70
     0
  9
$DIMUPT
 70
     0
  9
$DIMDEC
 70
     2
  9
$DIMTDEC
 70
     2
  9
$DIMALTU
 70
     2
  9
$DIMALTTD
 70
     3
  9
$DIMTXSTY
  7
Standard
  9
$DIMAUNIT
 70
     0
  9
$DIMADEC
 70
     2
  9
$DIMALTRND
 40
0.0
  9
$DIMAZIN
 70
     0
  9
$DIMDSEP
 70
    44
  9
$DIMATFIT
 70
     3
  9
$DIMFRAC
 70
     0
  9
$DIMLDRBLK
  1

  9
$DIMLUNIT
 70
     2
  9
$DIMLWD
 70
    -2
  9
$DIMLWE
 70
    -2
  9
$DIMTMOVE
 70
     0
  9
$LUNITS
 70
     2
  9
$LUPREC
 70
     2
  9
$SKETCHINC
 40
1.0
  9
$FILLETRAD
 40
10.0
  9
$AUNITS
 70
     0
  9
$AUPREC
 70
     2
  9
$MENU
  1
.
  9
$ELEVATION
 40
0.0
  9
$PELEVATION
 40
0.0
  9
$THICKNESS
 40
0.0
  9
$LIMCHECK
 70
     0
  9
$CHAMFERA
 40
0.0
  9
$CHAMFERB
 40
0.0
  9
$CHAMFERC
 40
0.0
  9
$CHAMFERD
 40
0.0
  9
$SKPOLY
 70
     0
  9
$TDCREATE
 40
2458985.706054734
  9
$TDUCREATE
 40
2458985.581054734
  9
$TDUPDATE
 40
2458985.706055069
  9
$TDUUPDATE
 40
2458985.581055069
  9
$TDINDWG
 40
0.0000000116
  9
$TDUSRTIMER
 40
0.0000000116
  9
$USRTIMER
 70
     1
  9
$ANGBASE
 50
0.0
  9
$ANGDIR
 70
     0
  9
$PDMODE
 70
     0
  9
$PDSIZE
 40
-1.0
  9
$PLINEWID
 40
0.0
  9
$SPLFRAME
 70
     0
  9
$SPLINETYPE
 70
     6
  9
$SPLINESEGS
 70
     8
  9
$HANDSEED
  5
F1
  9
$SURFTAB1
 70
     6
  9
$SURFTAB2
 70
     6
  9
$SURFTYPE
 70
     6
  9
$SURFU
 70
     6
  9
$SURFV
 70
     6
  9
$UCSBASE
  2

  9
$UCSNAME
  2

  9
$UCSORG
 10
0.0
 20
0.0
 30
0.0
  9
$UCSXDIR
 10
1.0
 20
0.0
 30
0.0
  9
$UCSYDIR
 10
0.0
 20
1.0
 30
0.0
  9
$UCSORTHOREF
  2

  9
$UCSORTHOVIEW
 70
     0
  9
$UCSORGTOP
 10
0.0
 20
0.0
 30
0.0
  9
$UCSORGBOTTOM
 10
0.0
 20
0.0
 30
0.0
  9
$UCSORGLEFT
 10
0.0
 20
0.0
 30
0.0
  9
$UCSORGRIGHT
 10
0.0
 20
0.0
 30
0.0
  9
$UCSORGFRONT
 10
0.0
 20
0.0
 30
0.0
  9
$UCSORGBACK
 10
0.0
 20
0.0
 30
0.0
  9
$PUCSBASE
  2

  9
$PUCSNAME
  2

  9
$PUCSORG
 10
0.0
 20
0.0
 30
0.0
  9
$PUCSXDIR
 10
1.0
 20
0.0
 30
0.0
  9
$PUCSYDIR
 10
0.0
 20
1.0
 30
0.0
  9
$PUCSORTHOREF
  2

  9
$PUCSORTHOVIEW
 70
     0
  9
$PUCSORGTOP
 10
0.0
 20
0.0
 30
0.0
  9
$PUCSORGBOTTOM
 10
0.0
 20
0.0
 30
0.0
  9
$PUCSORGLEFT
 10
0.0
 20
0.0
 30
0.0
  9
$PUCSORGRIGHT
 10
0.0
 20
0.0
 30
0.0
  9
$PUCSORGFRONT
 10
0.0
 20
0.0
 30
0.0
  9
$PUCSORGBACK
 10
0.0
 20
0.0
 30
0.0
  9
$USERI1
 70
     0
  9
$USERI2
 70
     0
  9
$USERI3
 70
     0
  9
$USERI4
 70
     0
  9
$USERI5
 70
     0
  9
$USERR1
 40
0.0
  9
$USERR2
 40
0.0
  9
$USERR3
 40
0.0
  9
$USERR4
 40
0.0
  9
$USERR5
 40
0.0
  9
$WORLDVIEW
 70
     1
  9
$SHADEDGE
 70
     3
  9
$SHADEDIF
 70
    70
  9
$TILEMODE
 70
     1
  9
$MAXACTVP
 70
    64
  9
$PINSBASE
 10
0.0
 20
0.0
 30
0.0
  9
$PLIMCHECK
 70
     0
  9
$PEXTMIN
 10
1.0000000000E+20
 20
1.0000000000E+20
 30
1.0000000000E+20
  9
$PEXTMAX
 10
-1.0000000000E+20
 20
-1.0000000000E+20
 30
-1.0000000000E+20
  9
$PLIMMIN
 10
0.0
 20
0.0
  9
$PLIMMAX
 10
420.0
 20
297.0
  9
$UNITMODE
 70
     0
  9
$VISRETAIN
 70
     1
  9
$PLINEGEN
 70
     0
  9
$PSLTSCALE
 70
     1
  9
$TREEDEPTH
 70
  3020
  9
$CMLSTYLE
  2
Standard
  9
$CMLJUST
 70
     0
  9
$CMLSCALE
 40
20.0
  9
$PROXYGRAPHICS
 70
     1
  9
$MEASUREMENT
 70
     1
  9
$CELWEIGHT
370
    -1
  9
$ENDCAPS
280
     0
  9
$JOINSTYLE
280
     0
  9
$LWDISPLAY
290
     1
  9
$INSUNITS
 70
     4
  9
$HYPERLINKBASE
  1

  9
$STYLESHEET
  1

  9
$XEDIT
290
     1
  9
$CEPSNTYPE
380
     0
  9
$PSTYLEMODE
290
     1
  9
$FINGERPRINTGUID
  2
{4511a997-1f09-4fed-9d40-e570560e879a}
  9
$VERSIONGUID
  2
{FAEB1C32-E019-11D5-929B-00C0DF256EC4}
  9
$EXTNAMES
290
     1
  9
$PSVPSCALE
 40
0.0
  9
$OLESTARTUP
290
     0
  0
ENDSEC
  0
SECTION
  2
CLASSES
  0
CLASS
  1
ACDBDICTIONARYWDFLT
  2
AcDbDictionaryWithDefault
  3
ObjectDBX Classes
 90
        0
280
     0
281
     0
  0
CLASS
  1
VISUALSTYLE
  2
AcDbVisualStyle
  3
ObjectDBX Classes
 90
     4095
280
     0
281
     0
  0
CLASS
  1
MATERIAL
  2
AcDbMaterial
  3
ObjectDBX Classes
 90
     1153
280
     0
281
     0
  0
CLASS
  1
SCALE
  2
AcDbScale
  3
ObjectDBX Classes
 90
     1153
280
     0
281
     0
  0
CLASS
  1
TABLESTYLE
  2
AcDbTableStyle
  3
ObjectDBX Classes
 90
     4095
280
     0
281
     0
  0
CLASS
  1
MLEADERSTYLE
  2
AcDbMLeaderStyle
  3
ACDB_MLEADERSTYLE_CLASS
 90
     4095
280
     0
281
     0
  0
CLASS
  1
SUN
  2
AcDbSun
  3
SCENEOE
 90
     1153
280
     0
281
     0
  0
CLASS
  1
ACDBPLACEHOLDER
  2
AcDbPlaceHolder
  3
ObjectDBX Classes
 90
        0
280
     0
281
     0
  0
CLASS
  1
LAYOUT
  2
AcDbLayout
  3
ObjectDBX Classes
 90
        0
280
     0
281
     0
  0
ENDSEC
  0
SECTION
  2
TABLES
  0
TABLE
  2
VPORT
  5
8
330
0
100
AcDbSymbolTable
 70
     1
  0
VPORT
  5
29
330
8
100
AcDbSymbolTableRecord
100
AcDbViewportTableRecord
  2
*Active
 70
     0
 10
0.0
 20
0.0
 11
1.0
 21
1.0
 12
139.7
 22
107.95
 13
0.0
 23
0.0
 14
10.0
 24
10.0
 15
10.0
 25
10.0
 16
0.0
 26
0.0
 36
1.0
 17
0.0
 27
0.0
 37
0.0
 40
215.9
 41
1.2941176471
 42
50.0
 43
0.0
 44
0.0
 50
0.0
 51
0.0
 71
     0
 72
  2000
 73
     1
 74
     3
 75
     0
 76
     0
 77
     0
 78
     0
281
     0
 65
     1
110
0.0
120
0.0
130
0.0
111
1.0
121
0.0
131
0.0
112
0.0
122
1.0
132
0.0
 79
     0
146
0.0
  0
ENDTAB
  0
TABLE
  2
LTYPE
  5
5
330
0
100
AcDbSymbolTable
 70
     6
  0
LTYPE
  5
14
330
5
100
AcDbSymbolTableRecord
100
AcDbLinetypeTableRecord
  2
ByBlock
 70
     0
  3

 72
    65
 73
     0
 40
0.0
  0
LTYPE
  5
15
330
5
100
AcDbSymbolTableRecord
100
AcDbLinetypeTableRecord
  2
ByLayer
 70
     0
  3

 72
    65
 73
     0
 40
0.0
  0
LTYPE
  5
16
330
5
100
AcDbSymbolTableRecord
100
AcDbLinetypeTableRecord
  2
Continuous
 70
     0
  3
Solid line
 72
    65
 73
     0
 40
0.0
  0
LTYPE
  5
6E
330
5
100
AcDbSymbolTableRecord
100
AcDbLinetypeTableRecord
  2
HIDDEN
 70
     0
  3
Hidden __ __ __ __ __ __ __ __ __ __ __ __ __ __
 72
    65
 73
     2
 40
1.905
 49
1.27
 74
     0
 49
-0.635
 74
     0
  0
LTYPE
  5
6F
330
5
100
AcDbSymbolTableRecord
100
AcDbLinetypeTableRecord
  2
PHANTOM
 70
     0
  3
Phantom ______  __  __  ______  __  __  ______
 72
    65
 73
     6
 40
12.7
 49
6.35
 74
     0
 49
-1.27
 74
     0
 49
1.27
 74
     0
 49
-1.27
 74
     0
 49
1.27
 74
     0
 49
-1.27
 74
     0
  0
LTYPE
  5
70
330
5
100
AcDbSymbolTableRecord
100
AcDbLinetypeTableRecord
  2
CENTER
 70
     0
  3
Center ____ _ ____ _ ____ _ ____ _ ____ _ ____
 72
    65
 73
     4
 40
10.16
 49
6.35
 74
     0
 49
-1.27
 74
     0
 49
1.27
 74
     0
 49
-1.27
 74
     0
  0
LTYPE
  5
71
330
5
100
AcDbSymbolTableRecord
100
AcDbLinetypeTableRecord
  2
CENTERX2
 70
     0
  3
Center (2x) ________  __  ________  __  _____
 72
    65
 73
     4
 40
20.32
 49
12.7
 74
     0
 49
-2.54
 74
     0
 49
2.54
 74
     0
 49
-2.54
 74
     0
  0
LTYPE
  5
72
330
5
100
AcDbSymbolTableRecord
100
AcDbLinetypeTableRecord
  2
DOT2
 70
     0
  3
Dot (.5x) ........................................
 72
    65
 73
     2
 40
0.635
 49
0.0
 74
     0
 49
-0.635
 74
     0
  0
ENDTAB
  0
TABLE
  2
LAYER
  5
2
330
0
100
AcDbSymbolTable
 70
    17
  0
LAYER
  5
10
330
2
100
AcDbSymbolTableRecord
100
AcDbLayerTableRecord
  2
0
 70
     0
 62
     7
  6
Continuous
370
    -3
390
F
  0
LAYER
  5
73
330
2
100
AcDbSymbolTableRecord
100
AcDbLayerTableRecord
  2
FORMAT
 70
     0
 62
     7
  6
Continuous
370
    -3
390
F
  0
LAYER
  5
74
330
2
100
AcDbSymbolTableRecord
100
AcDbLayerTableRecord
  2
YARDIMCI_GEOMETRI
 70
     0
 62
    -6
  6
Continuous
290
     0
370
    -3
390
F
  0
LAYER
  5
75
330
2
100
AcDbSymbolTableRecord
100
AcDbLayerTableRecord
  2
SAYFA_CERCEVESI
 70
     0
 62
     7
  6
Continuous
370
    25
390
F
  0
LAYER
  5
76
330
2
100
AcDbSymbolTableRecord
100
AcDbLayerTableRecord
  2
ANTET
 70
     0
 62
     7
  6
Continuous
370
    -3
390
F
  0
LAYER
  5
77
330
2
100
AcDbSymbolTableRecord
100
AcDbLayerTableRecord
  2
OLCU
 70
     0
 62
   150
  6
Continuous
370
    -3
390
F
  0
LAYER
  5
78
330
2
100
AcDbSymbolTableRecord
100
AcDbLayerTableRecord
  2
METIN
 70
     0
 62
    96
  6
Continuous
370
    -3
390
F
  0
LAYER
  5
79
330
2
100
AcDbSymbolTableRecord
100
AcDbLayerTableRecord
  2
BALON
 70
     0
 62
     5
  6
Continuous
370
    -3
390
F
  0
LAYER
  5
7A
330
2
100
AcDbSymbolTableRecord
100
AcDbLayerTableRecord
  2
VURGU
 70
     0
 62
     7
  6
Continuous
370
    -3
390
F
  0
LAYER
  5
7B
330
2
100
AcDbSymbolTableRecord
100
AcDbLayerTableRecord
  2
SILIK
 70
     0
 62
     7
  6
Continuous
370
    -3
390
F
  0
LAYER
  5
7C
330
2
100
AcDbSymbolTableRecord
100
AcDbLayerTableRecord
  2
MODEL
 70
     0
 62
     7
  6
Continuous
370
    -3
390
F
  0
LAYER
  5
7D
330
2
100
AcDbSymbolTableRecord
100
AcDbLayerTableRecord
  2
DETAYLANDıRMA
 70
     0
 62
   190
  6
Continuous
370
    -3
390
F
  0
LAYER
  5
7E
330
2
100
AcDbSymbolTableRecord
100
AcDbLayerTableRecord
  2
TOLERANS
 70
     0
 62
   230
  6
Continuous
370
    -3
390
F
  0
LAYER
  5
7F
330
2
100
AcDbSymbolTableRecord
100
AcDbLayerTableRecord
  2
MERKEZ_CIZGILERI
 70
     0
 62
    30
  6
Continuous
370
    -3
390
F
  0
LAYER
  5
80
330
2
100
AcDbSymbolTableRecord
100
AcDbLayerTableRecord
  2
KESIT-DETAY_CIZGILERI
 70
     0
 62
     7
  6
Continuous
370
    -3
390
F
  0
LAYER
  5
81
330
2
100
AcDbSymbolTableRecord
100
AcDbLayerTableRecord
  2
\U+041E\U+0421\U+0415\U+0412\U+042B\U+0415
 70
     0
 62
     7
  6
Continuous
370
    -3
390
F
  0
LAYER
  5
82
330
2
100
AcDbSymbolTableRecord
100
AcDbLayerTableRecord
  2
\U+0412\U+041E\U+0414\U+042F\U+041D\U+042B\U+0415_\U+0417\U+041D\U+0410\U+041A\U+0418
 70
     0
 62
    11
  6
Continuous
370
    -3
390
F
  0
ENDTAB
  0
TABLE
  2
STYLE
  5
3
330
0
100
AcDbSymbolTable
 70
     1
  0
STYLE
  5
11
330
3
100
AcDbSymbolTableRecord
100
AcDbTextStyleTableRecord
  2
Standard
 70
     0
 40
0.0
 41
1.0
 50
0.0
 71
     0
 42
3.5
  3
txt
  4

  0
ENDTAB
  0
TABLE
  2
VIEW
  5
6
330
0
100
AcDbSymbolTable
 70
     0
  0
ENDTAB
  0
TABLE
  2
UCS
  5
7
330
0
100
AcDbSymbolTable
 70
     0
  0
ENDTAB
  0
TABLE
  2
APPID
  5
9
330
0
100
AcDbSymbolTable
 70
     1
  0
APPID
  5
12
330
9
100
AcDbSymbolTableRecord
100
AcDbRegAppTableRecord
  2
ACAD
 70
     0
  0
ENDTAB
  0
TABLE
  2
DIMSTYLE
  5
A
330
0
100
AcDbSymbolTable
 70
     1
100
AcDbDimStyleTable
  0
DIMSTYLE
105
27
330
A
100
AcDbSymbolTableRecord
100
AcDbDimStyleTableRecord
  2
ISO-25
 70
     0
 41
2.5
 42
0.625
 43
3.75
 44
1.25
 73
     0
 74
     0
 77
     1
 78
     8
140
2.5
141
2.5
143
0.0393700787
147
0.625
171
     3
172
     1
178
     0
271
     2
272
     2
274
     3
278
    44
283
     0
284
     8
340
11
  0
ENDTAB
  0
TABLE
  2
BLOCK_RECORD
  5
1
330
0
100
AcDbSymbolTable
 70
     2
  0
BLOCK_RECORD
  5
1F
330
1
100
AcDbSymbolTableRecord
100
AcDbBlockTableRecord
  2
*Model_Space
340
22
  0
BLOCK_RECORD
  5
1B
330
1
100
AcDbSymbolTableRecord
100
AcDbBlockTableRecord
  2
*Paper_Space
340
1E
  0
BLOCK_RECORD
  5
23
330
1
100
AcDbSymbolTableRecord
100
AcDbBlockTableRecord
  2
*Paper_Space0
340
26
  0
BLOCK_RECORD
  5
88
330
1
100
AcDbSymbolTableRecord
100
AcDbBlockTableRecord
  2
SW_CENTERMARKSYMBOL_0
340
0
102
{BLKREFS
331
93
102
}
  0
ENDTAB
  0
ENDSEC
  0
SECTION
  2
BLOCKS
  0
BLOCK
  5
20
330
1F
100
AcDbEntity
  8
0
100
AcDbBlockBegin
  2
*Model_Space
 70
     0
 10
0.0
 20
0.0
 30
0.0
  3
*Model_Space
  1

  0
ENDBLK
  5
21
330
1F
100
AcDbEntity
  8
0
100
AcDbBlockEnd
  0
BLOCK
  5
1C
330
1B
100
AcDbEntity
 67
     1
  8
0
100
AcDbBlockBegin
  2
*Paper_Space
 70
     0
 10
0.0
 20
0.0
 30
0.0
  3
*Paper_Space
  1

  0
ENDBLK
  5
1D
330
1B
100
AcDbEntity
 67
     1
  8
0
100
AcDbBlockEnd
  0
BLOCK
  5
24
330
23
100
AcDbEntity
  8
0
100
AcDbBlockBegin
  2
*Paper_Space0
 70
     0
 10
0.0
 20
0.0
 30
0.0
  3
*Paper_Space0
  1

  0
ENDBLK
  5
25
330
23
100
AcDbEntity
  8
0
100
AcDbBlockEnd
  0
BLOCK
  5
89
330
88
100
AcDbEntity
  8
0
100
AcDbBlockBegin
  2
SW_CENTERMARKSYMBOL_0
 70
     0
 10
0.0
 20
0.0
 30
0.0
  3
SW_CENTERMARKSYMBOL_0
  1

  0
LINE
  5
8B
330
88
100
AcDbEntity
  8
FORMAT
 62
     0
100
AcDbLine
 10
0.0
 20
0.0
 30
0.0
 11
0.0
 21
2.5
 31
0.0
  0
LINE
  5
8C
330
88
100
AcDbEntity
  8
FORMAT
 62
     0
100
AcDbLine
 10
0.0
 20
0.0
 30
0.0
 11
-2.5
 21
0.0
 31
0.0
  0
LINE
  5
8D
330
88
100
AcDbEntity
  8
FORMAT
 62
     0
100
AcDbLine
 10
0.0
 20
0.0
 30
0.0
 11
0.0
 21
-2.5
 31
0.0
  0
LINE
  5
8E
330
88
100
AcDbEntity
  8
FORMAT
 62
     0
100
AcDbLine
 10
0.0
 20
0.0
 30
0.0
 11
2.5
 21
0.0
 31
0.0
  0
LINE
  5
8F
330
88
100
AcDbEntity
  8
FORMAT
 62
     0
100
AcDbLine
 10
0.0
 20
5.0
 30
0.0
 11
0.0
 21
127.5
 31
0.0
  0
LINE
  5
90
330
88
100
AcDbEntity
  8
FORMAT
 62
     0
100
AcDbLine
 10
-5.0
 20
0.0
 30
0.0
 11
-127.5
 21
0.0
 31
0.0
  0
LINE
  5
91
330
88
100
AcDbEntity
  8
FORMAT
 62
     0
100
AcDbLine
 10
0.0
 20
-5.0
 30
0.0
 11
0.0
 21
-127.5
 31
0.0
  0
LINE
  5
92
330
88
100
AcDbEntity
  8
FORMAT
 62
     0
100
AcDbLine
 10
5.0
 20
0.0
 30
0.0
 11
127.5
 21
0.0
 31
0.0
  0
ENDBLK
  5
8A
330
88
100
AcDbEntity
  8
0
100
AcDbBlockEnd
  0
ENDSEC
  0
SECTION
  2
ENTITIES
  0
CIRCLE
  5
83
330
1F
100
AcDbEntity
  8
0
  6
Continuous
 62
     7
370
    25
100
AcDbCircle
 10
130.6810329512
 20
112.0420513222
 30
0.0
 40
125.0
  0
CIRCLE
  5
84
330
1F
100
AcDbEntity
  8
0
  6
Continuous
 62
     7
370
    25
100
AcDbCircle
 10
130.6810329512
 20
112.0420513222
 30
0.0
 40
110.2
  0
CIRCLE
  5
85
330
1F
100
AcDbEntity
  8
0
  6
Continuous
 62
     7
370
    25
100
AcDbCircle
 10
130.6810329512
 20
112.0420513222
 30
0.0
 40
109.9009531232889
  0
CIRCLE
  5
86
330
1F
100
AcDbEntity
  8
0
  6
Continuous
 62
     7
370
    25
100
AcDbCircle
 10
130.6810329512
 20
112.0420513222
 30
0.0
 40
88.39904687671113
  0
CIRCLE
  5
87
330
1F
100
AcDbEntity
  8
0
  6
Continuous
 62
     7
370
    25
100
AcDbCircle
 10
130.6810329512
 20
112.0420513222
 30
0.0
 40
88.10000000000004
  0
INSERT
  5
93
330
1F
100
AcDbEntity
  8
FORMAT
 62
     7
100
AcDbBlockReference
  2
SW_CENTERMARKSYMBOL_0
 10
130.6810329512
 20
112.0420513222
 30
0.0
  0
LINE
  5
94
330
1F
100
AcDbEntity
  8
0
  6
Continuous
 62
     7
370
    25
100
AcDbLine
 10
-288.5578371357
 20
237.0420513222
 30
0.0
 11
-417.2066937905
 21
237.0420513222
 31
0.0
  0
LINE
  5
95
330
1F
100
AcDbEntity
  8
0
  6
Continuous
 62
     7
370
    25
100
AcDbLine
 10
-417.2066937905
 20
-12.9579486778
 30
0.0
 11
-288.5578371357
 21
-12.9579486778
 31
0.0
  0
ARC
  5
96
330
1F
100
AcDbEntity
  8
0
  6
Continuous
 62
     7
370
    25
100
AcDbCircle
 10
-288.5578374872
 20
235.0420513222
 30
0.0
 40
2.000000000000001
100
AcDbArc
 50
70.0835940062
 51
90.0
  0
ARC
  5
97
330
1F
100
AcDbEntity
  8
0
  6
Continuous
 62
     7
370
    25
100
AcDbCircle
 10
-288.5578374872
 20
-10.9579486778
 30
0.0
 40
2.000000000000008
100
AcDbArc
 50
270.0
 51
289.9164059938
  0
LINE
  5
98
330
1F
100
AcDbEntity
  8
0
  6
Continuous
 62
     7
370
    25
100
AcDbLine
 10
-287.8765392821
 20
-12.8383296063
 30
0.0
 11
-219.5368338149
 21
11.9224307606
 31
0.0
  0
LINE
  5
99
330
1F
100
AcDbEntity
  8
0
  6
Continuous
 62
     7
370
    25
100
AcDbLine
 10
-219.5368338149
 20
212.1616718838
 30
0.0
 11
-287.8765392821
 21
236.9224322507
 31
0.0
  0
ARC
  5
9A
330
1F
100
AcDbEntity
  8
0
  6
Continuous
 62
     7
370
    25
100
AcDbCircle
 10
-218.8555378828
 20
214.0420513222
 30
0.0
 40
2.000000000000008
100
AcDbArc
 50
250.0835940062
 51
270.0
  0
ARC
  5
9B
330
1F
100
AcDbEntity
  8
0
  6
Continuous
 62
     7
370
    25
100
AcDbCircle
 10
-218.8555378828
 20
10.0420513222
 30
0.0
 40
2.000000000000002
100
AcDbArc
 50
90.0
 51
109.9164059938
  0
LINE
  5
9C
330
1F
100
AcDbEntity
  8
0
  6
Continuous
 62
     7
370
    25
100
AcDbLine
 10
-107.2066914063
 20
212.0420528123
 30
0.0
 11
-218.8555378239
 21
212.0420528123
 31
0.0
  0
LINE
  5
9D
330
1F
100
AcDbEntity
  8
0
  6
Continuous
 62
     7
370
    25
100
AcDbLine
 10
-218.8555378239
 20
12.0420498321
 30
0.0
 11
-107.2066914063
 21
12.0420498321
 31
0.0
  0
LINE
  5
9E
330
1F
100
AcDbEntity
  8
0
  6
Continuous
 62
     7
370
    25
100
AcDbLine
 10
-417.2066937905
 20
237.0420513222
 30
0.0
 11
-417.2066937905
 21
-12.9579486778
 31
0.0
  0
LINE
  5
9F
330
1F
100
AcDbEntity
  8
0
  6
Continuous
 62
     7
370
    25
100
AcDbLine
 10
-107.2066914063
 20
212.0420528123
 30
0.0
 11
-107.2066914063
 21
12.0420498321
 31
0.0
  0
LINE
  5
A0
330
1F
100
AcDbEntity
  8
0
  6
Continuous
 62
     1
370
    25
100
AcDbLine
 10
-288.5578371357
 20
237.0420513222
 30
0.0
 11
-288.5578371357
 21
-12.9579486778
 31
0.0
  0
LINE
  5
A1
330
1F
100
AcDbEntity
  8
0
  6
Continuous
 62
     1
370
    25
100
AcDbLine
 10
-287.8765392821
 20
236.9224322507
 30
0.0
 11
-287.8765392821
 21
-12.8383296063
 31
0.0
  0
LINE
  5
A2
330
1F
100
AcDbEntity
  8
0
  6
Continuous
 62
     1
370
    25
100
AcDbLine
 10
-219.5368338149
 20
212.1616718838
 30
0.0
 11
-219.5368338149
 21
11.9224307606
 31
0.0
  0
LINE
  5
A3
330
1F
100
AcDbEntity
  8
0
  6
Continuous
 62
     1
370
    25
100
AcDbLine
 10
-218.8555378239
 20
212.0420528123
 30
0.0
 11
-218.8555378239
 21
12.0420498321
 31
0.0
  0
LINE
  5
A4
330
1F
100
AcDbEntity
  8
0
  6
Continuous
 62
     7
370
    25
100
AcDbLine
 10
255.6810329512
 20
490.2793493308
 30
0.0
 11
255.6810329512
 21
618.9282059856
 31
0.0
  0
LINE
  5
A5
330
1F
100
AcDbEntity
  8
0
  6
Continuous
 62
     7
370
    25
100
AcDbLine
 10
5.6810329512
 20
618.9282059856
 30
0.0
 11
5.6810329512
 21
490.2793493308
 31
0.0
  0
ARC
  5
A6
330
1F
100
AcDbEntity
  8
0
  6
Continuous
 62
     7
370
    25
100
AcDbCircle
 10
253.6810329512
 20
490.2793496823
 30
0.0
 40
2.000000000000028
100
AcDbArc
 50
340.0835940062
 51
0.0
  0
ARC
  5
A7
330
1F
100
AcDbEntity
  8
0
  6
Continuous
 62
     7
370
    25
100
AcDbCircle
 10
7.6810329512
 20
490.2793496823
 30
0.0
 40
1.999999999999988
100
AcDbArc
 50
180.0
 51
199.9164059938
  0
LINE
  5
A8
330
1F
100
AcDbEntity
  8
0
  6
Continuous
 62
     7
370
    25
100
AcDbLine
 10
5.8006520227
 20
489.5980514772
 30
0.0
 11
30.5614123896
 21
421.25834601
 31
0.0
  0
LINE
  5
A9
330
1F
100
AcDbEntity
  8
0
  6
Continuous
 62
     7
370
    25
100
AcDbLine
 10
230.8006535128
 20
421.25834601
 30
0.0
 11
255.5614138797
 21
489.5980514772
 31
0.0
  0
ARC
  5
AA
330
1F
100
AcDbEntity
  8
0
  6
Continuous
 62
     7
370
    25
100
AcDbCircle
 10
232.6810329512
 20
420.5770500779
 30
0.0
 40
2.000000000000008
100
AcDbArc
 50
160.0835940062
 51
180.0
  0
ARC
  5
AB
330
1F
100
AcDbEntity
  8
0
  6
Continuous
 62
     7
370
    25
100
AcDbCircle
 10
28.6810329512
 20
420.5770500779
 30
0.0
 40
2.000000000000004
100
AcDbArc
 50
0.0
 51
19.9164059938
  0
LINE
  5
AC
330
1F
100
AcDbEntity
  8
0
  6
Continuous
 62
     7
370
    25
100
AcDbLine
 10
230.6810344413
 20
308.9282036014
 30
0.0
 11
230.6810344413
 21
420.577050019
 31
0.0
  0
LINE
  5
AD
330
1F
100
AcDbEntity
  8
0
  6
Continuous
 62
     7
370
    25
100
AcDbLine
 10
30.6810314611
 20
420.577050019
 30
0.0
 11
30.6810314611
 21
308.9282036014
 31
0.0
  0
LINE
  5
AE
330
1F
100
AcDbEntity
  8
0
  6
Continuous
 62
     7
370
    25
100
AcDbLine
 10
255.6810329512
 20
618.9282059856
 30
0.0
 11
5.6810329512
 21
618.9282059856
 31
0.0
  0
LINE
  5
AF
330
1F
100
AcDbEntity
  8
0
  6
Continuous
 62
     7
370
    25
100
AcDbLine
 10
230.6810344413
 20
308.9282036014
 30
0.0
 11
30.6810314611
 21
308.9282036014
 31
0.0
  0
LINE
  5
B0
330
1F
100
AcDbEntity
  8
0
  6
Continuous
 62
     1
370
    25
100
AcDbLine
 10
255.6810329512
 20
490.2793493308
 30
0.0
 11
5.6810329512
 21
490.2793493308
 31
0.0
  0
LINE
  5
B1
330
1F
100
AcDbEntity
  8
0
  6
Continuous
 62
     1
370
    25
100
AcDbLine
 10
255.5614138797
 20
489.5980514772
 30
0.0
 11
5.8006520227
 21
489.5980514772
 31
0.0
  0
LINE
  5
B2
330
1F
100
AcDbEntity
  8
0
  6
Continuous
 62
     1
370
    25
100
AcDbLine
 10
230.8006535128
 20
421.25834601
 30
0.0
 11
30.5614123896
 21
421.25834601
 31
0.0
  0
LINE
  5
B3
330
1F
100
AcDbEntity
  8
0
  6
Continuous
 62
     1
370
    25
100
AcDbLine
 10
230.6810344413
 20
420.577050019
 30
0.0
 11
30.6810314611
 21
420.577050019
 31
0.0
  0
LINE
  5
B4
330
1F
100
AcDbEntity
  8
0
  6
Continuous
 62
     7
370
    25
100
AcDbLine
 10
540.2797902028
 20
-12.9579486778
 30
0.0
 11
668.9286468576
 21
-12.9579486778
 31
0.0
  0
LINE
  5
B5
330
1F
100
AcDbEntity
  8
0
  6
Continuous
 62
     7
370
    25
100
AcDbLine
 10
668.9286468576
 20
237.0420513222
 30
0.0
 11
540.2797902028
 21
237.0420513222
 31
0.0
  0
ARC
  5
B6
330
1F
100
AcDbEntity
  8
0
  6
Continuous
 62
     7
370
    25
100
AcDbCircle
 10
540.2797905544
 20
-10.9579486778
 30
0.0
 40
1.999999999999988
100
AcDbArc
 50
250.0835940062
 51
270.0
  0
ARC
  5
B7
330
1F
100
AcDbEntity
  8
0
  6
Continuous
 62
     7
370
    25
100
AcDbCircle
 10
540.2797905544
 20
235.0420513222
 30
0.0
 40
1.999999999999982
100
AcDbArc
 50
90.0
 51
109.9164059938
  0
LINE
  5
B8
330
1F
100
AcDbEntity
  8
0
  6
Continuous
 62
     7
370
    25
100
AcDbLine
 10
539.5984923492
 20
236.9224322507
 30
0.0
 11
471.258786882
 21
212.1616718838
 31
0.0
  0
LINE
  5
B9
330
1F
100
AcDbEntity
  8
0
  6
Continuous
 62
     7
370
    25
100
AcDbLine
 10
471.258786882
 20
11.9224307606
 30
0.0
 11
539.5984923492
 21
-12.8383296063
 31
0.0
  0
ARC
  5
BA
330
1F
100
AcDbEntity
  8
0
  6
Continuous
 62
     7
370
    25
100
AcDbCircle
 10
470.5774909499
 20
10.0420513222
 30
0.0
 40
2.000000000000002
100
AcDbArc
 50
70.0835940062
 51
90.0
  0
ARC
  5
BB
330
1F
100
AcDbEntity
  8
0
  6
Continuous
 62
     7
370
    25
100
AcDbCircle
 10
470.5774909499
 20
214.0420513222
 30
0.0
 40
2.000000000000008
100
AcDbArc
 50
270.0
 51
289.9164059938
  0
LINE
  5
BC
330
1F
100
AcDbEntity
  8
0
  6
Continuous
 62
     7
370
    25
100
AcDbLine
 10
358.9286444734
 20
12.0420498321
 30
0.0
 11
470.5774908911
 21
12.0420498321
 31
0.0
  0
LINE
  5
BD
330
1F
100
AcDbEntity
  8
0
  6
Continuous
 62
     7
370
    25
100
AcDbLine
 10
470.5774908911
 20
212.0420528123
 30
0.0
 11
358.9286444734
 21
212.0420528123
 31
0.0
  0
LINE
  5
BE
330
1F
100
AcDbEntity
  8
0
  6
Continuous
 62
     7
370
    25
100
AcDbLine
 10
668.9286468576
 20
112.0420513222
 30
0.0
 11
668.9286468576
 21
237.0420513222
 31
0.0
  0
LINE
  5
BF
330
1F
100
AcDbEntity
  8
0
  6
Continuous
 62
     7
370
    25
100
AcDbLine
 10
668.9286468576
 20
-12.9579486778
 30
0.0
 11
668.9286468576
 21
112.0420513222
 31
0.0
  0
LINE
  5
C0
330
1F
100
AcDbEntity
  8
0
  6
Continuous
 62
     7
370
    25
100
AcDbLine
 10
358.9286444734
 20
112.0420513222
 30
0.0
 11
358.9286444734
 21
212.0420528123
 31
0.0
  0
LINE
  5
C1
330
1F
100
AcDbEntity
  8
0
  6
Continuous
 62
     7
370
    25
100
AcDbLine
 10
358.9286444734
 20
12.0420498321
 30
0.0
 11
358.9286444734
 21
112.0420513222
 31
0.0
  0
LINE
  5
C2
330
1F
100
AcDbEntity
  8
0
  6
Continuous
 62
     1
370
    25
100
AcDbLine
 10
540.2797902028
 20
112.0420513222
 30
0.0
 11
540.2797902028
 21
237.0420513222
 31
0.0
  0
LINE
  5
C3
330
1F
100
AcDbEntity
  8
0
  6
Continuous
 62
     1
370
    25
100
AcDbLine
 10
540.2797902028
 20
-12.9579486778
 30
0.0
 11
540.2797902028
 21
112.0420513222
 31
0.0
  0
LINE
  5
C4
330
1F
100
AcDbEntity
  8
0
  6
Continuous
 62
     1
370
    25
100
AcDbLine
 10
539.5984923492
 20
112.0420513222
 30
0.0
 11
539.5984923492
 21
236.9224322507
 31
0.0
  0
LINE
  5
C5
330
1F
100
AcDbEntity
  8
0
  6
Continuous
 62
     1
370
    25
100
AcDbLine
 10
539.5984923492
 20
-12.8383296063
 30
0.0
 11
539.5984923492
 21
112.0420513222
 31
0.0
  0
LINE
  5
C6
330
1F
100
AcDbEntity
  8
0
  6
Continuous
 62
     1
370
    25
100
AcDbLine
 10
471.258786882
 20
112.0420513222
 30
0.0
 11
471.258786882
 21
212.1616718838
 31
0.0
  0
LINE
  5
C7
330
1F
100
AcDbEntity
  8
0
  6
Continuous
 62
     1
370
    25
100
AcDbLine
 10
471.258786882
 20
11.9224307606
 30
0.0
 11
471.258786882
 21
112.0420513222
 31
0.0
  0
LINE
  5
C8
330
1F
100
AcDbEntity
  8
0
  6
Continuous
 62
     1
370
    25
100
AcDbLine
 10
470.5774908911
 20
112.0420513222
 30
0.0
 11
470.5774908911
 21
212.0420528123
 31
0.0
  0
LINE
  5
C9
330
1F
100
AcDbEntity
  8
0
  6
Continuous
 62
     1
370
    25
100
AcDbLine
 10
470.5774908911
 20
12.0420498321
 30
0.0
 11
470.5774908911
 21
112.0420513222
 31
0.0
  0
LINE
  5
CA
330
1F
100
AcDbEntity
  8
0
  6
Continuous
 62
     7
370
    25
100
AcDbLine
 10
5.6810329512
 20
-282.115235453
 30
0.0
 11
5.6810329512
 21
-410.7640921077
 31
0.0
  0
LINE
  5
CB
330
1F
100
AcDbEntity
  8
0
  6
Continuous
 62
     7
370
    25
100
AcDbLine
 10
255.6810329512
 20
-410.7640921077
 30
0.0
 11
255.6810329512
 21
-282.115235453
 31
0.0
  0
ARC
  5
CC
330
1F
100
AcDbEntity
  8
0
  6
Continuous
 62
     7
370
    25
100
AcDbCircle
 10
7.6810329512
 20
-282.1152358045
 30
0.0
 40
1.999999999999988
100
AcDbArc
 50
160.0835940062
 51
180.0
  0
ARC
  5
CD
330
1F
100
AcDbEntity
  8
0
  6
Continuous
 62
     7
370
    25
100
AcDbCircle
 10
253.6810329512
 20
-282.1152358045
 30
0.0
 40
2.000000000000028
100
AcDbArc
 50
0.0
 51
19.9164059938
  0
LINE
  5
CE
330
1F
100
AcDbEntity
  8
0
  6
Continuous
 62
     7
370
    25
100
AcDbLine
 10
255.5614138797
 20
-281.4339375994
 30
0.0
 11
230.8006535128
 21
-213.0942321321
 31
0.0
  0
LINE
  5
CF
330
1F
100
AcDbEntity
  8
0
  6
Continuous
 62
     7
370
    25
100
AcDbLine
 10
30.5614123896
 20
-213.0942321321
 30
0.0
 11
5.8006520227
 21
-281.4339375994
 31
0.0
  0
ARC
  5
D0
330
1F
100
AcDbEntity
  8
0
  6
Continuous
 62
     7
370
    25
100
AcDbCircle
 10
28.6810329512
 20
-212.4129362001
 30
0.0
 40
2.000000000000004
100
AcDbArc
 50
340.0835940062
 51
0.0
  0
ARC
  5
D1
330
1F
100
AcDbEntity
  8
0
  6
Continuous
 62
     7
370
    25
100
AcDbCircle
 10
232.6810329512
 20
-212.4129362001
 30
0.0
 40
2.000000000000008
100
AcDbArc
 50
180.0
 51
199.9164059938
  0
LINE
  5
D2
330
1F
100
AcDbEntity
  8
0
  6
Continuous
 62
     7
370
    25
100
AcDbLine
 10
30.6810314611
 20
-100.7640897235
 30
0.0
 11
30.6810314611
 21
-212.4129361412
 31
0.0
  0
LINE
  5
D3
330
1F
100
AcDbEntity
  8
0
  6
Continuous
 62
     7
370
    25
100
AcDbLine
 10
230.6810344413
 20
-212.4129361412
 30
0.0
 11
230.6810344413
 21
-100.7640897235
 31
0.0
  0
LINE
  5
D4
330
1F
100
AcDbEntity
  8
0
  6
Continuous
 62
     7
370
    25
100
AcDbLine
 10
5.6810329512
 20
-410.7640921077
 30
0.0
 11
255.6810329512
 21
-410.7640921077
 31
0.0
  0
LINE
  5
D5
330
1F
100
AcDbEntity
  8
0
  6
Continuous
 62
     7
370
    25
100
AcDbLine
 10
30.6810314611
 20
-100.7640897235
 30
0.0
 11
230.6810344413
 21
-100.7640897235
 31
0.0
  0
LINE
  5
D6
330
1F
100
AcDbEntity
  8
0
  6
Continuous
 62
     1
370
    25
100
AcDbLine
 10
5.6810329512
 20
-282.115235453
 30
0.0
 11
255.6810329512
 21
-282.115235453
 31
0.0
  0
LINE
  5
D7
330
1F
100
AcDbEntity
  8
0
  6
Continuous
 62
     1
370
    25
100
AcDbLine
 10
5.8006520227
 20
-281.4339375994
 30
0.0
 11
255.5614138797
 21
-281.4339375994
 31
0.0
  0
LINE
  5
D8
330
1F
100
AcDbEntity
  8
0
  6
Continuous
 62
     1
370
    25
100
AcDbLine
 10
30.5614123896
 20
-213.0942321321
 30
0.0
 11
230.8006535128
 21
-213.0942321321
 31
0.0
  0
LINE
  5
D9
330
1F
100
AcDbEntity
  8
0
  6
Continuous
 62
     1
370
    25
100
AcDbLine
 10
30.6810314611
 20
-212.4129361412
 30
0.0
 11
230.6810344413
 21
-212.4129361412
 31
0.0
  0
LINE
  5
DA
330
1F
100
AcDbEntity
  8
0
  6
Continuous
 62
     7
370
    25
100
AcDbLine
 10
594.4955271255
 20
-133.4363359042
 30
0.0
 11
503.5270481931
 21
-80.9213508293
 31
0.0
  0
LINE
  5
DB
330
1F
100
AcDbEntity
  8
0
  6
Continuous
 62
     7
370
    25
100
AcDbLine
 10
378.5372077228
 20
-297.4335630776
 30
0.0
 11
469.5056866553
 21
-349.9485481524
 31
0.0
  0
SPLINE
  5
DC
330
1F
100
AcDbEntity
  8
0
  6
Continuous
 62
     7
370
    25
100
AcDbSpline
210
0.0
220
0.0
230
1.0
 70
     8
 71
     3
 72
     9
 73
     5
 74
     0
 42
0.000000001
 43
0.00000001
 40
0.0
 40
0.0
 40
0.0
 40
0.0
 40
0.2676064267186822
 40
1.0
 40
1.0
 40
1.0
 40
1.0
 10
603.4299662210301
 20
-140.310391152323
 30
0.0
 10
603.2441692580809
 20
-140.1139869061083
 30
0.0
 10
602.5498774010902
 20
-139.380057423835
 30
0.0
 10
601.78529431475
 20
-138.7440183928954
 30
0.0
 10
601.2253185760749
 20
-138.2781874942792
 30
0.0
  0
SPLINE
  5
DD
330
1F
100
AcDbEntity
  8
0
  6
Continuous
 62
     7
370
    25
100
AcDbSpline
210
0.0
220
0.0
230
1.0
 70
     8
 71
     3
 72
     9
 73
     5
 74
     0
 42
0.000000001
 43
0.00000001
 40
0.0
 40
0.0
 40
0.0
 40
0.0
 40
0.8731722288575712
 40
1.0
 40
1.0
 40
1.0
 40
1.0
 10
477.3649530598473
 20
-353.4657854270194
 30
0.0
 10
478.2082016030395
 20
-353.7643087099294
 30
0.0
 10
479.1739315189982
 20
-354.1061923304157
 30
0.0
 10
480.1896019587602
 20
-354.3353107070157
 30
0.0
 10
480.3184171768505
 20
-354.3643692800475
 30
0.0
  0
LINE
  5
DE
330
1F
100
AcDbEntity
  8
0
  6
Continuous
 62
     7
370
    25
100
AcDbLine
 10
488.1310599473
 20
-355.7492072138
 30
0.0
 11
545.2483189011
 21
-361.0861939245
 31
0.0
  0
LINE
  5
DF
330
1F
100
AcDbEntity
  8
0
  6
Continuous
 62
     7
370
    25
100
AcDbLine
 10
642.0179598684
 20
-193.4580967353
 30
0.0
 11
608.8329696121
 21
-146.6647120069
 31
0.0
  0
LINE
  5
E0
330
1F
100
AcDbEntity
  8
0
  6
Continuous
 62
     7
370
    25
100
AcDbLine
 10
710.2311669461
 20
-229.1158285347
 30
0.0
 11
637.5499382134
 21
-187.157848288
 31
0.0
  0
LINE
  5
E1
330
1F
100
AcDbEntity
  8
0
  6
Continuous
 62
     7
370
    25
100
AcDbLine
 10
537.5580679446
 20
-360.3676217371
 30
0.0
 11
610.2392966772
 21
-402.3256019837
 31
0.0
  0
LWPOLYLINE
  5
E2
330
1F
100
AcDbEntity
  8
0
  6
Continuous
 62
     7
370
    25
100
AcDbPolyline
 90
      124
 70
   128
 43
0.0
 10
352.6437803096
 20
-240.2029639424
 10
352.7590782821
 20
-234.9247714165
 10
353.1046719032
 20
-229.5272291191
 10
353.6796550156
 20
-224.0244199773
 10
354.4825314063
 20
-218.4306991087
 10
355.5112042696
 20
-212.7606611205
 10
356.7629972805
 20
-207.0290937228
 10
358.2346335216
 20
-201.2509549133
 10
359.922282898
 20
-195.4413167071
 10
361.8215357958
 20
-189.6153392786
 10
363.9274399601
 20
-183.7882192535
 10
366.2345004957
 20
-177.9751562485
 10
368.7367009398
 20
-172.1913254965
 10
371.4275137995
 20
-166.4517987595
 10
374.2999163559
 20
-160.771568665
 10
377.3464170068
 20
-155.1654422434
 10
380.5590605345
 20
-149.6480561378
 10
383.9294755213
 20
-144.2337883953
 10
387.4488638125
 20
-138.9367828
 10
391.1080479319
 20
-133.7708424131
 10
394.8974763499
 20
-128.7494508664
 10
398.8072629963
 20
-123.8857130497
 10
402.827210968
 20
-119.1923110063
 10
406.9468309681
 20
-114.6814993719
 10
411.1553755502
 20
-110.3650308525
 10
415.4418654603
 20
-106.2541775198
 10
419.7951159784
 20
-102.359660851
 10
424.2037724801
 20
-98.6916433672
 10
428.6563328271
 20
-95.2596974566
 10
433.1411789771
 20
-92.0727688748
 10
437.6466125456
 20
-89.1391683836
 10
442.160878513
 20
-86.4665641482
 10
446.6721994693
 20
-84.0619193826
 10
451.1688065658
 20
-81.931510984
 10
455.6389678318
 20
-80.0808888504
 10
460.0710211028
 20
-78.5148933744
 10
464.45340563
 20
-77.2376006932
 10
468.7746851293
 20
-76.2523458842
 10
473.023587953
 20
-75.5616997753
 10
477.18902948
 20
-75.1674681863
 10
481.2601410916
 20
-75.0706691176
 10
485.2263017821
 20
-75.2715692555
 10
489.0771645001
 20
-75.7696322633
 10
492.8026877591
 20
-76.5635613699
 10
496.3931409052
 20
-77.6512902452
 10
499.8391673382
 20
-79.0299769217
 10
503.1317739743
 20
-80.6960281289
 10
506.2623681247
 20
-82.645090171
 10
509.2227838375
 20
-84.8720884733
 10
512.0052977028
 20
-87.371206291
 10
514.6026499258
 20
-90.1359272966
 10
517.0080654008
 20
-93.159029499
 10
519.2152695155
 20
-96.4326369556
 10
521.2185039569
 20
-99.9482045651
 10
523.0125372473
 20
-103.6965606541
 10
524.592696355
 20
-107.6679282732
 10
525.9548508887
 20
-111.8519464885
 10
527.0954552449
 20
-116.23769472
 10
528.0115328023
 20
-120.8137338057
 10
528.700686459
 20
-125.568128816
 10
529.161124974
 20
-130.4884711099
 10
529.3916471619
 20
-135.5619258622
 10
529.3916471619
 20
-140.7752586803
 10
529.161124974
 20
-146.1148686855
 10
528.700686459
 20
-151.5668219731
 10
528.0115328023
 20
-157.1168968589
 10
527.0954552449
 20
-162.7506165791
 10
525.9548508887
 20
-168.4532785689
 10
524.592696355
 20
-174.2100069327
 10
523.0125372473
 20
-180.0057874238
 10
521.2185039569
 20
-185.8254902601
 10
519.2152695155
 20
-191.6539431244
 10
517.0080654008
 20
-197.475934208
 10
514.6026499258
 20
-203.2762700027
 10
512.0052977028
 20
-209.039830053
 10
509.2227838375
 20
-214.7515699969
 10
506.2623681247
 20
-220.3965915266
 10
503.1317739743
 20
-225.9601606378
 10
499.8391673382
 20
-231.4277745485
 10
496.3931409052
 20
-236.7851586556
 10
492.8026877591
 20
-242.018336495
 10
489.0771645001
 20
-247.1136631986
 10
485.2263017821
 20
-252.0578376625
 10
481.2601410916
 20
-256.8379694619
 10
477.18902948
 20
-261.4415758091
 10
473.023587953
 20
-265.8566606379
 10
468.7746851293
 20
-270.071693309
 10
464.45340563
 20
-274.0756816109
 10
460.0710211028
 20
-277.858182404
 10
455.6389678318
 20
-281.4093267133
 10
451.1688065658
 20
-284.7198429196
 10
446.6721994693
 20
-287.7811065667
 10
442.160878513
 20
-290.5851221079
 10
437.6466125456
 20
-293.1245784166
 10
433.1411789771
 20
-295.3928407987
 10
428.6563328271
 20
-297.384005363
 10
424.2037724801
 20
-299.0928762036
 10
419.7951159784
 20
-300.5149851704
 10
415.4418654603
 20
-301.6466245651
 10
411.1553755502
 20
-302.4848471385
 10
406.9468309681
 20
-303.0274607651
 10
402.827210968
 20
-303.2730611397
 10
398.8072629963
 20
-303.2209922309
 10
394.8974763499
 20
-302.8713979899
 10
391.1080479319
 20
-302.2251873663
 10
387.4488638125
 20
-301.2840510361
 10
383.9294755213
 20
-300.0504446699
 10
380.5590605345
 20
-298.5275752404
 10
377.3464170068
 20
-296.7194283986
 10
374.2999163559
 20
-294.6307167582
 10
371.4275137995
 20
-292.2668920637
 10
368.7367009398
 20
-289.6341117255
 10
366.2345004957
 20
-286.7392601127
 10
363.9274399601
 20
-283.5898725041
 10
361.8215357958
 20
-280.1941776728
 10
359.922282898
 20
-276.5610309643
 10
358.2346335216
 20
-272.6999112527
 10
356.7629972805
 20
-268.6208874805
 10
355.5112042696
 20
-264.3346095294
 10
354.4825314063
 20
-259.8522519486
 10
353.6796550156
 20
-255.1855124294
 10
353.1046719032
 20
-250.3465646586
 10
352.7590782821
 20
-245.3480362628
 10
352.6437803096
 20
-240.2029639424
  0
LWPOLYLINE
  5
E3
330
1F
100
AcDbEntity
  8
0
  6
Continuous
 62
     7
370
    25
100
AcDbPolyline
 90
      117
 70
   128
 43
0.0
 10
363.1089586987
 20
-234.1615450536
 10
363.2232398785
 20
-229.2240014042
 10
363.5657515112
 20
-224.1689922165
 10
364.1354820727
 20
-219.011349844
 10
364.930761494
 20
-213.7661985962
 10
365.9492611617
 20
-208.4489247002
 10
367.1879939179
 20
-203.0751234489
 10
368.6433193286
 20
-197.6605604172
 10
370.3109752938
 20
-192.2211136703
 10
372.186072779
 20
-186.7727372611
 10
374.2631010837
 20
-181.3314186442
 10
376.5359805251
 20
-175.9131087187
 10
378.9980360961
 20
-170.5337066164
 10
381.6420448804
 20
-165.2089927856
 10
384.4602623948
 20
-159.9545772817
 10
387.4444067833
 20
-154.7858875988
 10
390.5857378434
 20
-149.718062212
 10
393.8750359518
 20
-144.7659870777
 10
397.3026547488
 20
-139.9441739647
 10
400.8585395766
 20
-135.2667680601
 10
404.5322590903
 20
-130.7474993031
 10
408.3130395018
 20
-126.3996078627
 10
412.1897909216
 20
-122.2358593492
 10
416.151141603
 20
-118.2684642087
 10
420.1854721867
 20
-114.5090518705
 10
424.2809499452
 20
-110.9686570616
 10
428.4255630264
 20
-107.6576635362
 10
432.6071514062
 20
-104.5857801237
 10
436.8134526564
 20
-101.762014307
 10
441.032127958
 20
-99.1946572059
 10
445.2508032595
 20
-96.8912354813
 10
449.4571045097
 20
-94.8585092478
 10
453.6386928895
 20
-93.102433483
 10
457.7833059707
 20
-91.6281586021
 10
461.8787837292
 20
-90.4400154409
 10
465.9131143129
 20
-89.5414888341
 10
469.8744649943
 20
-88.9352058313
 10
473.7512164141
 20
-88.62295243
 10
477.5319968256
 20
-88.6056477231
 10
481.2057163393
 20
-88.8833302142
 10
484.7616011671
 20
-89.4551988854
 10
488.1892199641
 20
-90.3195675721
 10
491.4785180725
 20
-91.4738999475
 10
494.6198491326
 20
-92.9148216932
 10
497.6039935211
 20
-94.6380916029
 10
500.4222110355
 20
-96.6386624248
 10
503.0662198198
 20
-98.910668692
 10
505.5282753908
 20
-101.447441939
 10
507.8011548322
 20
-104.2415411193
 10
509.878183137
 20
-107.2847739003
 10
511.7532806221
 20
-110.5682088352
 10
513.4209365873
 20
-114.0822209887
 10
514.876261998
 20
-117.816501067
 10
516.1149947543
 20
-121.7600919209
 10
517.1334944219
 20
-125.901431131
 10
517.9287738432
 20
-130.2283723037
 10
518.4985044047
 20
-134.7282177715
 10
518.8410160374
 20
-139.3877714455
 10
518.9552972172
 20
-144.1933688533
 10
518.8410160374
 20
-149.1309125027
 10
518.4985044047
 20
-154.1859216904
 10
517.9287738432
 20
-159.3435640629
 10
517.1334944219
 20
-164.5887153107
 10
516.1149947543
 20
-169.9059892067
 10
514.876261998
 20
-175.279790458
 10
513.4209365873
 20
-180.6943534897
 10
511.7532806221
 20
-186.1338002366
 10
509.878183137
 20
-191.5821766458
 10
507.8011548322
 20
-197.0234952627
 10
505.5282753908
 20
-202.4418051882
 10
503.0662198198
 20
-207.8212072905
 10
500.4222110355
 20
-213.1459211213
 10
497.6039935211
 20
-218.4003366252
 10
494.6198491326
 20
-223.5690263081
 10
491.4785180725
 20
-228.6368516949
 10
488.1892199641
 20
-233.5889268292
 10
484.7616011671
 20
-238.4107399422
 10
481.2057163393
 20
-243.0881458468
 10
477.5319968256
 20
-247.6074146038
 10
473.7512164141
 20
-251.9553060442
 10
469.8744649943
 20
-256.1190545577
 10
465.9131143129
 20
-260.0864496982
 10
461.8787837292
 20
-263.8458620364
 10
457.7833059707
 20
-267.3862568453
 10
453.6386928895
 20
-270.6972503707
 10
449.4571045097
 20
-273.7691337832
 10
445.2508032595
 20
-276.5928995999
 10
441.032127958
 20
-279.160256701
 10
436.8134526564
 20
-281.4636784256
 10
432.6071514062
 20
-283.4964046591
 10
428.4255630264
 20
-285.2524804239
 10
424.2809499452
 20
-286.7267553048
 10
420.1854721867
 20
-287.914898466
 10
416.151141603
 20
-288.8134250728
 10
412.1897909216
 20
-289.4197080756
 10
408.3130395018
 20
-289.7319614769
 10
404.5322590903
 20
-289.7492661838
 10
400.8585395766
 20
-289.4715836927
 10
397.3026547488
 20
-288.8997150215
 10
393.8750359518
 20
-288.0353463348
 10
390.5857378434
 20
-286.8810139594
 10
387.4444067833
 20
-285.4400922137
 10
384.4602623948
 20
-283.716822304
 10
381.6420448804
 20
-281.7162514821
 10
378.9980360961
 20
-279.4442452149
 10
376.5359805251
 20
-276.9074719679
 10
374.2631010837
 20
-274.1133727876
 10
372.186072779
 20
-271.0701400066
 10
370.3109752938
 20
-267.7867050717
 10
368.6433193286
 20
-264.2726929182
 10
367.1879939179
 20
-260.5384128399
 10
365.9492611617
 20
-256.594821986
 10
364.930761494
 20
-252.4534827759
 10
364.1354820727
 20
-248.1265416032
 10
363.5657515112
 20
-243.6266961354
 10
363.2232398785
 20
-238.9671424614
 10
363.1089586987
 20
-234.1615450536
  0
ARC
  5
E4
330
1F
100
AcDbEntity
  8
0
  6
Continuous
 62
     7
370
    25
100
AcDbCircle
 10
573.3715021499
 20
-169.9748062244
 30
0.0
 40
42.2052632324068
100
AcDbArc
 50
49.0386138994
 51
59.9664588616
  0
ARC
  5
E5
330
1F
100
AcDbEntity
  8
0
  6
Continuous
 62
     7
370
    25
100
AcDbCircle
 10
490.5683037449
 20
-313.4193758498
 30
0.0
 40
42.16650646877049
100
AcDbArc
 50
240.0323729397
 51
251.3931941111
  0
ARC
  5
E6
330
1F
100
AcDbEntity
  8
0
  6
Continuous
 62
     7
370
    25
100
AcDbCircle
 10
565.9912156291
 20
-177.3705343996
 30
0.0
 40
52.68757904183236
100
AcDbArc
 50
21.4823693491
 51
44.4696402075
  0
ARC
  5
E7
330
1F
100
AcDbEntity
  8
0
  6
Continuous
 62
     7
370
    25
100
AcDbCircle
 10
493.2411439799
 20
-303.7143214214
 30
0.0
 40
52.27115401329416
100
AcDbArc
 50
255.9145393993
 51
277.8521941149
  0
ARC
  5
E8
330
1F
100
AcDbEntity
  8
0
  6
Continuous
 62
     7
370
    25
100
AcDbCircle
 10
605.9280093791
 20
-218.8780013345
 30
0.0
 40
44.14358476774591
100
AcDbArc
 50
24.6580289758
 51
35.1588962848
  0
ARC
  5
E9
330
1F
100
AcDbEntity
  8
0
  6
Continuous
 62
     7
370
    25
100
AcDbCircle
 10
549.2323744854
 20
-316.6825298767
 30
0.0
 40
44.58203763594516
100
AcDbArc
 50
264.8729464269
 51
276.981772886
  0
LWPOLYLINE
  5
EA
330
1F
100
AcDbEntity
  8
0
  6
Continuous
 62
     7
370
    25
100
AcDbPolyline
 90
       57
 70
   128
 43
0.0
 10
710.2311669461
 20
-229.1158285347
 10
712.3306963996
 20
-230.4342027901
 10
714.9753110449
 20
-232.4318918982
 10
717.4413705664
 20
-234.7012502662
 10
719.7208407213
 20
-237.2348763154
 10
721.8062773223
 20
-240.0245076785
 10
723.6908841902
 20
-243.0610424979
 10
725.3685078851
 20
-246.3345820113
 10
726.8336851216
 20
-249.8344427232
 10
728.0816322326
 20
-253.5492096368
 10
729.1082767788
 20
-257.4667666752
 10
729.9102680857
 20
-261.5743392684
 10
730.484998317
 20
-265.8585247736
 10
730.8305866697
 20
-270.305349889
 10
730.945910984
 20
-274.9003090598
 10
730.8305866697
 20
-279.6284188497
 10
730.484998317
 20
-284.474251784
 10
729.9102680857
 20
-289.4220066899
 10
729.1082767788
 20
-294.4555387363
 10
728.0816322326
 20
-299.5584343371
 10
726.8336851216
 20
-304.7140503157
 10
725.3685078851
 20
-309.905568657
 10
723.6908841902
 20
-315.1160512594
 10
721.8062773223
 20
-320.3285068527
 10
719.7208407213
 20
-325.5259320641
 10
717.4413705664
 20
-330.6913783342
 10
714.9753110449
 20
-335.8079884204
 10
712.3306963996
 20
-340.8590846043
 10
709.5161614662
 20
-345.8281778188
 10
706.5408784525
 20
-350.699071065
 10
703.4145569389
 20
-355.4558715795
 10
700.1473938284
 20
-360.0830623135
 10
696.7500470054
 20
-364.5655536413
 10
693.2335958227
 20
-368.8887244221
 10
689.6095094915
 20
-373.0384706664
 10
685.8896102026
 20
-377.0012572439
 10
682.0860336145
 20
-380.7641589454
 10
678.2111827542
 20
-384.3149053447
 10
674.2776977251
 20
-387.6419104551
 10
670.2984102669
 20
-390.7343293784
 10
666.2862989748
 20
-393.5820598226
 10
662.2544494575
 20
-396.1758259386
 10
658.2160141658
 20
-398.5071650086
 10
654.1841646485
 20
-400.5684732592
 10
650.1720533564
 20
-402.3530279119
 10
646.1927658982
 20
-403.8549964935
 10
642.2592808691
 20
-405.0694965291
 10
638.3844300088
 20
-405.9925577053
 10
634.5808534207
 20
-406.6211720566
 10
630.8609541319
 20
-406.9532897782
 10
627.2368678006
 20
-406.9878245471
 10
623.7204166179
 20
-406.7246618822
 10
620.3230697949
 20
-406.1646637036
 10
617.0559066844
 20
-405.3096592037
 10
613.9295851708
 20
-404.1624326769
 10
610.9543021572
 20
-402.7267280782
 10
610.2392966772
 20
-402.3256019837
  0
LWPOLYLINE
  5
EB
330
1F
100
AcDbEntity
  8
0
  6
Continuous
 62
     1
370
    25
100
AcDbPolyline
 90
       59
 70
   128
 43
0.0
 10
601.0391730684
 20
-138.1034361493
 10
602.9737766353
 20
-139.8861913658
 10
605.5711288583
 20
-142.6509123715
 10
607.9765443333
 20
-145.6740145738
 10
610.183748448
 20
-148.9476220305
 10
612.1869828894
 20
-152.46318964
 10
613.9810161798
 20
-156.211545729
 10
615.5611752874
 20
-160.1829133481
 10
616.9233298212
 20
-164.3669315633
 10
618.0639341774
 20
-168.7526797948
 10
618.9800117348
 20
-173.3287188805
 10
619.6691653915
 20
-178.0831138908
 10
620.1296039064
 20
-183.0034561847
 10
620.3601260944
 20
-188.076910937
 10
620.3601260944
 20
-193.2902437551
 10
620.1296039064
 20
-198.6298537603
 10
619.6691653915
 20
-204.0818070479
 10
618.9800117348
 20
-209.6318819337
 10
618.0639341774
 20
-215.2656016539
 10
616.9233298212
 20
-220.9682636437
 10
615.5611752874
 20
-226.7249920075
 10
613.9810161798
 20
-232.5207724986
 10
612.1869828894
 20
-238.3404753349
 10
610.183748448
 20
-244.1689281993
 10
607.9765443333
 20
-249.9909192829
 10
605.5711288583
 20
-255.7912550775
 10
602.9737766353
 20
-261.5548151278
 10
600.19126277
 20
-267.2665550717
 10
597.2308470572
 20
-272.9115766014
 10
594.1002529068
 20
-278.4751457126
 10
590.8076462707
 20
-283.9427596233
 10
587.3616198377
 20
-289.3001437304
 10
583.7711666915
 20
-294.5333215699
 10
580.0456434326
 20
-299.6286482734
 10
576.1947807146
 20
-304.5728227373
 10
572.2286200241
 20
-309.3529545368
 10
568.1575084125
 20
-313.9565608839
 10
563.9920668855
 20
-318.3716457128
 10
559.7431640618
 20
-322.5866783839
 10
555.4218845624
 20
-326.5906666858
 10
551.0395000353
 20
-330.3731674788
 10
546.6074467643
 20
-333.9243117882
 10
542.1372854982
 20
-337.2348279944
 10
537.6406784018
 20
-340.2960916415
 10
533.1293574455
 20
-343.1001071827
 10
528.6150914781
 20
-345.6395634914
 10
524.1096579096
 20
-347.9078258736
 10
519.6248117596
 20
-349.8989904378
 10
515.1722514126
 20
-351.6078612784
 10
510.7635949108
 20
-353.0299702452
 10
506.4103443927
 20
-354.1616096399
 10
502.1238544827
 20
-354.9998322133
 10
497.9153099006
 20
-355.5424458399
 10
493.7956899005
 20
-355.7880462145
 10
489.7757419288
 20
-355.7359773057
 10
485.8659552823
 20
-355.3863830648
 10
482.0765268644
 20
-354.7401724411
 10
478.417342745
 20
-353.7990361109
 10
477.1141569207
 20
-353.3818607701
  0
LWPOLYLINE
  5
EC
330
1F
100
AcDbEntity
  8
0
  6
Continuous
 62
     1
370
    25
100
AcDbPolyline
 90
       24
 70
   128
 43
0.0
 10
454.9570120666
 20
-269.6731954325
 10
455.5267900432
 20
-266.0661726414
 10
456.5452897109
 20
-260.7488987455
 10
457.7840224672
 20
-255.3750974941
 10
459.2393478779
 20
-249.9605344624
 10
460.907003843
 20
-244.5210877156
 10
462.7821013282
 20
-239.0727113063
 10
464.859129633
 20
-233.6313926894
 10
467.1320090744
 20
-228.2130827639
 10
469.5940646454
 20
-222.8336806617
 10
472.2380734297
 20
-217.5089668308
 10
475.056290944
 20
-212.254551327
 10
478.0404353326
 20
-207.085861644
 10
481.1817663926
 20
-202.0180362572
 10
484.4710645011
 20
-197.065961123
 10
487.898683298
 20
-192.2441480099
 10
491.4545681259
 20
-187.5667421053
 10
495.1282876396
 20
-183.0474733484
 10
498.9090680511
 20
-178.6995819079
 10
502.7858194708
 20
-174.5358333944
 10
506.7471701522
 20
-170.568438254
 10
510.781500736
 20
-166.8090259157
 10
514.8769784944
 20
-163.2686311068
 10
517.703278984
 20
-160.981693895
  0
LWPOLYLINE
  5
ED
330
1F
100
AcDbEntity
  8
0
  6
Continuous
 62
     1
370
    25
100
AcDbPolyline
 90
       47
 70
   128
 43
0.0
 10
615.0186044186
 20
-158.0755574943
 10
615.9629625114
 20
-160.5390226754
 10
617.3238157612
 20
-164.71903465
 10
618.4633295676
 20
-169.1005865449
 10
619.3785273096
 20
-173.6722483237
 10
620.0670224218
 20
-178.4220926623
 10
620.5270183948
 20
-183.3377276493
 10
620.7573193118
 20
-188.4063277759
 10
620.7573193118
 20
-193.6146715772
 10
620.5270183948
 20
-198.9491714827
 10
620.0670224218
 20
-204.3959065154
 10
619.3785273096
 20
-209.9406703902
 10
618.4633295676
 20
-215.5689969901
 10
617.3238157612
 20
-221.2662035215
 10
615.9629625114
 20
-227.0174232142
 10
614.3843154219
 20
-232.8076555099
 10
612.5919943472
 20
-238.6217949603
 10
610.5906828558
 20
-244.4446662075
 10
608.3855913519
 20
-250.2610817754
 10
605.9824728802
 20
-256.0558755321
 10
603.3876073212
 20
-261.813917897
 10
600.6077539757
 20
-267.5201918832
 10
597.6501726385
 20
-273.1598113505
 10
594.5225761827
 20
-278.7180544609
 10
591.2331200235
 20
-284.1804366825
 10
587.7903915814
 20
-289.5326925374
 10
584.2033734034
 20
-294.7608638114
 10
580.4814168215
 20
-299.8513147616
 10
576.6342393186
 20
-304.7907579712
 10
572.6718744786
 20
-309.5663136611
 10
568.6046588163
 20
-314.1655172937
 10
564.4432028007
 20
-318.5763728019
 10
560.1983671479
 20
-322.7873723595
 10
555.8812206739
 20
-326.787532879
 10
551.5030310752
 20
-330.5664135019
 10
547.0752188309
 20
-334.114160461
 10
542.6093354699
 20
-337.4215074593
 10
538.1170313033
 20
-340.4798429675
 10
533.6100276001
 20
-343.281171533
 10
529.1000815201
 20
-345.8181948609
 10
524.5989597718
 20
-348.0842966022
 10
520.1184040392
 20
-350.0735562293
 10
515.6701057923
 20
-351.7807818282
 10
511.2656679266
 20
-353.2015322436
 10
506.916582044
 20
-354.332087609
 10
502.6341935491
 20
-355.1695120812
 10
500.3823269459
 20
-355.4953705391
  0
LWPOLYLINE
  5
EE
330
1F
100
AcDbEntity
  8
0
  6
Continuous
 62
     1
370
    25
100
AcDbPolyline
 90
       43
 70
   128
 43
0.0
 10
646.0463187705
 20
-200.4612337646
 10
647.4839425049
 20
-203.9020100081
 10
648.7333805606
 20
-207.6212227277
 10
649.7612526338
 20
-211.5434673746
 10
650.5642080498
 20
-215.6559511275
 10
651.1396231675
 20
-219.9452614564
 10
651.4856277203
 20
-224.3974041477
 10
651.6010890118
 20
-228.9978603374
 10
651.4856277203
 20
-233.7316252967
 10
651.1396231675
 20
-238.5832563412
 10
650.5642080498
 20
-243.5369268237
 10
649.7612526338
 20
-248.5764831667
 10
648.7333805606
 20
-253.6854836484
 10
647.4839425049
 20
-258.8472668412
 10
646.0170161741
 20
-264.0449903955
 10
644.3373852356
 20
-269.2617055634
 10
642.4505235113
 20
-274.4803997827
 10
640.3625897095
 20
-279.6840423043
 10
638.0803958146
 20
-284.8556663195
 10
635.6113860136
 20
-289.9783963341
 10
632.9636103547
 20
-295.0355333386
 10
630.1457036734
 20
-300.0105760984
 10
627.1668645194
 20
-304.8872941567
 10
624.0368024729
 20
-309.6497825827
 10
620.7657328765
 20
-314.282507599
 10
617.3643188826
 20
-318.7703643713
 10
613.8436609176
 20
-323.0987013422
 10
610.2152413634
 20
-327.2534130026
 10
606.4908929479
 20
-331.2209398884
 10
602.6827658172
 20
-334.9883484264
 10
598.8032801207
 20
-338.5433400552
 10
594.8650904496
 20
-341.8743265077
 10
590.8810423732
 20
-344.9704366515
 10
586.8641316088
 20
-347.8215765609
 10
582.8274594053
 20
-350.4184491906
 10
578.7841933604
 20
-352.752576995
 10
574.747521157
 20
-354.8163468869
 10
570.7306103925
 20
-356.6030334271
 10
566.7465623161
 20
-358.1068072811
 10
562.8083726451
 20
-359.3227578385
 10
558.9288869485
 20
-360.2469250533
 10
555.1207598178
 20
-360.8762865126
 10
554.6514810014
 20
-360.9339859469
  0
LWPOLYLINE
  5
EF
330
1F
100
AcDbEntity
  8
0
  6
Continuous
 62
     1
370
    25
100
AcDbPolyline
 90
       24
 70
   128
 43
0.0
 10
456.6717065489
 20
-268.3007274901
 10
456.9376795047
 20
-266.6947186999
 10
457.9534132855
 20
-261.3918750883
 10
459.1887848306
 20
-256.0326561579
 10
460.6401642426
 20
-250.632784899
 10
462.3032946899
 20
-245.2080967913
 10
464.1733029431
 20
-239.774506345
 10
466.2446941069
 20
-234.3479553884
 10
468.5114043034
 20
-228.9443491945
 10
470.9667795988
 20
-223.5795443111
 10
473.6036181506
 20
-218.2692755606
 10
476.4141807435
 20
-213.0291286641
 10
479.3902329372
 20
-207.8744550739
 10
482.5230345288
 20
-202.820393265
 10
485.8034080421
 20
-197.8817501099
 10
489.2217255564
 20
-193.0730206486
 10
492.7679613901
 20
-188.4083090061
 10
496.43171054
 20
-183.90130558
 10
500.202230828
 20
-179.5652140399
 10
504.0684639749
 20
-175.4127634971
 10
508.0190645757
 20
-171.4561309397
 10
512.0424475156
 20
-167.7069199444
 10
516.1268116769
 20
-164.1761348227
 10
517.3722378795
 20
-163.1529256698
  0
LWPOLYLINE
  5
F0
330
1F
100
AcDbEntity
  8
0
  6
Continuous
 62
     1
370
    25
100
AcDbPolyline
 90
       50
 70
   128
 43
0.0
 10
640.5573502965
 20
-191.3985266388
 10
640.7731843077
 20
-191.6593643699
 10
642.8586209088
 20
-194.448995733
 10
644.7432277766
 20
-197.4855305524
 10
646.4208514715
 20
-200.7590700658
 10
647.886028708
 20
-204.2589307777
 10
649.133975819
 20
-207.9736976913
 10
650.1606203652
 20
-211.8912547297
 10
650.9626116721
 20
-215.9988273228
 10
651.5373419034
 20
-220.2830128281
 10
651.8829302562
 20
-224.7298379434
 10
651.9982545704
 20
-229.3247971143
 10
651.8829302562
 20
-234.0529069042
 10
651.5373419034
 20
-238.8987398385
 10
650.9626116721
 20
-243.8464947443
 10
650.1606203652
 20
-248.8800267908
 10
649.133975819
 20
-253.9829223916
 10
647.886028708
 20
-259.1385383702
 10
646.4208514715
 20
-264.3300567115
 10
644.7432277766
 20
-269.5405393139
 10
642.8586209088
 20
-274.7529949072
 10
640.7731843077
 20
-279.9504201186
 10
638.4937141529
 20
-285.1158663887
 10
636.0276546313
 20
-290.2324764749
 10
633.383039986
 20
-295.2835726588
 10
630.5685050526
 20
-300.2526658733
 10
627.5932220389
 20
-305.1235591195
 10
624.4669005253
 20
-309.880359634
 10
621.1997374148
 20
-314.507550368
 10
617.8023905918
 20
-318.9900416958
 10
614.2859394091
 20
-323.3132124766
 10
610.6618530779
 20
-327.4629587208
 10
606.9419537891
 20
-331.4257452984
 10
603.1383772009
 20
-335.1886469998
 10
599.2635263406
 20
-338.7393933992
 10
595.3300413115
 20
-342.0663985096
 10
591.3507538533
 20
-345.1588174329
 10
587.3386425613
 20
-348.0065478771
 10
583.3067930439
 20
-350.6003139931
 10
579.2683577522
 20
-352.931653063
 10
575.2365082349
 20
-354.9929613137
 10
571.2243969428
 20
-356.7775159664
 10
567.2451094846
 20
-358.279484548
 10
563.3116244555
 20
-359.4939845836
 10
559.4367735953
 20
-360.4170457598
 10
555.6331970071
 20
-361.045660111
 10
551.9132977183
 20
-361.3777778327
 10
548.289211387
 20
-361.4123126016
 10
544.7727602043
 20
-361.1491499366
 10
542.7343515837
 20
-360.8512876351
  0
ENDSEC
  0
SECTION
  2
OBJECTS
  0
DICTIONARY
  5
C
330
0
100
AcDbDictionary
281
     1
  3
ACAD_GROUP
350
D
  3
ACAD_LAYOUT
350
1A
  3
ACAD_MLINESTYLE
350
17
  3
ACAD_PLOTSETTINGS
350
19
  3
ACAD_PLOTSTYLENAME
350
E
  3
ACAD_SCALELIST
350
47
  0
DICTIONARY
  5
D
102
{ACAD_REACTORS
330
C
102
}
330
C
100
AcDbDictionary
281
     1
  0
DICTIONARY
  5
1A
102
{ACAD_REACTORS
330
C
102
}
330
C
100
AcDbDictionary
281
     1
  3
Layout1
350
1E
  3
Layout2
350
26
  3
Model
350
22
  0
DICTIONARY
  5
17
102
{ACAD_REACTORS
330
C
102
}
330
C
100
AcDbDictionary
281
     1
  3
Standard
350
18
  0
DICTIONARY
  5
19
102
{ACAD_REACTORS
330
C
102
}
330
C
100
AcDbDictionary
281
     1
  0
ACDBDICTIONARYWDFLT
  5
E
102
{ACAD_REACTORS
330
C
102
}
330
C
100
AcDbDictionary
281
     1
  3
Normal
350
F
100
AcDbDictionaryWithDefault
340
F
  0
DICTIONARY
  5
47
102
{ACAD_REACTORS
330
C
102
}
330
C
100
AcDbDictionary
281
     1
  3
A0
350
48
  3
A1
350
49
  3
A2
350
4A
  3
A3
350
4B
  3
A4
350
4C
  3
A5
350
4D
  3
A6
350
4E
  3
A7
350
4F
  3
A8
350
50
  3
A9
350
51
  3
B0
350
52
  3
B1
350
53
  3
B2
350
54
  3
B3
350
55
  3
B4
350
56
  3
B5
350
57
  3
B6
350
58
  3
B7
350
59
  3
B8
350
5A
  3
B9
350
5B
  3
C0
350
5C
  3
C1
350
5D
  3
C2
350
5E
  3
C3
350
5F
  3
C4
350
60
  3
C5
350
61
  3
C6
350
62
  3
C7
350
63
  3
C8
350
64
  3
C9
350
65
  3
D0
350
66
  3
D1
350
67
  3
D2
350
68
  0
LAYOUT
  5
1E
102
{ACAD_REACTORS
330
1A
102
}
330
1A
100
AcDbPlotSettings
  1

  2
none_device
  4

  6

 40
0.0
 41
0.0
 42
0.0
 43
0.0
 44
0.0
 45
0.0
 46
0.0
 47
0.0
 48
0.0
 49
0.0
140
0.0
141
0.0
142
1.0
143
1.0
 70
   688
 72
     1
 73
     0
 74
     5
  7

 75
    16
147
1.0
148
0.0
149
0.0
100
AcDbLayout
  1
Layout1
 70
     1
 71
     1
 10
0.0
 20
0.0
 11
420.0
 21
297.0
 12
0.0
 22
0.0
 32
0.0
 14
1.0000000000E+20
 24
1.0000000000E+20
 34
1.0000000000E+20
 15
-1.0000000000E+20
 25
-1.0000000000E+20
 35
-1.0000000000E+20
146
0.0
 13
0.0
 23
0.0
 33
0.0
 16
1.0
 26
0.0
 36
0.0
 17
0.0
 27
1.0
 37
0.0
 76
     0
330
1B
  0
LAYOUT
  5
26
102
{ACAD_REACTORS
330
1A
102
}
330
1A
100
AcDbPlotSettings
  1

  2
none_device
  4

  6

 40
0.0
 41
0.0
 42
0.0
 43
0.0
 44
0.0
 45
0.0
 46
0.0
 47
0.0
 48
0.0
 49
0.0
140
0.0
141
0.0
142
1.0
143
1.0
 70
   688
 72
     1
 73
     0
 74
     5
  7

 75
    16
147
1.0
148
0.0
149
0.0
100
AcDbLayout
  1
Layout2
 70
     1
 71
     2
 10
0.0
 20
0.0
 11
0.0
 21
0.0
 12
0.0
 22
0.0
 32
0.0
 14
0.0
 24
0.0
 34
0.0
 15
0.0
 25
0.0
 35
0.0
146
0.0
 13
0.0
 23
0.0
 33
0.0
 16
1.0
 26
0.0
 36
0.0
 17
0.0
 27
1.0
 37
0.0
 76
     0
330
23
  0
LAYOUT
  5
22
102
{ACAD_REACTORS
330
1A
102
}
330
1A
100
AcDbPlotSettings
  1

  2
none_device
  4
Letter_(8.50_x_11.00_Inches)
  6

 40
6.35
 41
6.35
 42
6.35000508
 43
6.35000508
 44
215.9
 45
279.4
 46
0.0
 47
0.0
 48
0.0
 49
0.0
140
0.0
141
0.0
142
1.0
143
1.0
 70
  1712
 72
     1
 73
     0
 74
     0
  7

 75
     0
147
1.0
148
0.0
149
0.0
100
AcDbLayout
  1
Model
 70
     1
 71
     0
 10
0.0
 20
0.0
 11
279.4
 21
215.9
 12
0.0
 22
0.0
 32
0.0
 14
0.0
 24
0.0
 34
0.0
 15
279.4
 25
215.9
 35
0.0
146
0.0
 13
0.0
 23
0.0
 33
0.0
 16
1.0
 26
0.0
 36
0.0
 17
0.0
 27
1.0
 37
0.0
 76
     0
330
1F
331
29
  0
MLINESTYLE
  5
18
102
{ACAD_REACTORS
330
17
102
}
330
17
100
AcDbMlineStyle
  2
Standard
 70
     0
  3

 62
   256
 51
90.0
 52
90.0
 71
     2
 49
0.5
 62
   256
  6
BYLAYER
 49
-0.5
 62
   256
  6
BYLAYER
  0
ACDBPLACEHOLDER
  5
F
102
{ACAD_REACTORS
330
E
102
}
330
E
  0
SCALE
  5
48
102
{ACAD_REACTORS
330
47
102
}
330
47
100
AcDbScale
 70
     0
300
1:1
140
1.0
141
1.0
290
     1
  0
SCALE
  5
49
102
{ACAD_REACTORS
330
47
102
}
330
47
100
AcDbScale
 70
     0
300
1:2
140
1.0
141
2.0
290
     0
  0
SCALE
  5
4A
102
{ACAD_REACTORS
330
47
102
}
330
47
100
AcDbScale
 70
     0
300
1:4
140
1.0
141
4.0
290
     0
  0
SCALE
  5
4B
102
{ACAD_REACTORS
330
47
102
}
330
47
100
AcDbScale
 70
     0
300
1:5
140
1.0
141
5.0
290
     0
  0
SCALE
  5
4C
102
{ACAD_REACTORS
330
47
102
}
330
47
100
AcDbScale
 70
     0
300
1:8
140
1.0
141
8.0
290
     0
  0
SCALE
  5
4D
102
{ACAD_REACTORS
330
47
102
}
330
47
100
AcDbScale
 70
     0
300
1:10
140
1.0
141
10.0
290
     0
  0
SCALE
  5
4E
102
{ACAD_REACTORS
330
47
102
}
330
47
100
AcDbScale
 70
     0
300
1:16
140
1.0
141
16.0
290
     0
  0
SCALE
  5
4F
102
{ACAD_REACTORS
330
47
102
}
330
47
100
AcDbScale
 70
     0
300
1:20
140
1.0
141
20.0
290
     0
  0
SCALE
  5
50
102
{ACAD_REACTORS
330
47
102
}
330
47
100
AcDbScale
 70
     0
300
1:30
140
1.0
141
30.0
290
     0
  0
SCALE
  5
51
102
{ACAD_REACTORS
330
47
102
}
330
47
100
AcDbScale
 70
     0
300
1:40
140
1.0
141
40.0
290
     0
  0
SCALE
  5
52
102
{ACAD_REACTORS
330
47
102
}
330
47
100
AcDbScale
 70
     0
300
1:50
140
1.0
141
50.0
290
     0
  0
SCALE
  5
53
102
{ACAD_REACTORS
330
47
102
}
330
47
100
AcDbScale
 70
     0
300
1:100
140
1.0
141
100.0
290
     0
  0
SCALE
  5
54
102
{ACAD_REACTORS
330
47
102
}
330
47
100
AcDbScale
 70
     0
300
2:1
140
2.0
141
1.0
290
     0
  0
SCALE
  5
55
102
{ACAD_REACTORS
330
47
102
}
330
47
100
AcDbScale
 70
     0
300
4:1
140
4.0
141
1.0
290
     0
  0
SCALE
  5
56
102
{ACAD_REACTORS
330
47
102
}
330
47
100
AcDbScale
 70
     0
300
8:1
140
8.0
141
1.0
290
     0
  0
SCALE
  5
57
102
{ACAD_REACTORS
330
47
102
}
330
47
100
AcDbScale
 70
     0
300
10:1
140
10.0
141
1.0
290
     0
  0
SCALE
  5
58
102
{ACAD_REACTORS
330
47
102
}
330
47
100
AcDbScale
 70
     0
300
100:1
140
100.0
141
1.0
290
     0
  0
SCALE
  5
59
102
{ACAD_REACTORS
330
47
102
}
330
47
100
AcDbScale
 70
     0
300
1/128" = 1'-0"
140
0.0078125
141
12.0
290
     0
  0
SCALE
  5
5A
102
{ACAD_REACTORS
330
47
102
}
330
47
100
AcDbScale
 70
     0
300
1/64" = 1'-0"
140
0.015625
141
12.0
290
     0
  0
SCALE
  5
5B
102
{ACAD_REACTORS
330
47
102
}
330
47
100
AcDbScale
 70
     0
300
1/32" = 1'-0"
140
0.03125
141
12.0
290
     0
  0
SCALE
  5
5C
102
{ACAD_REACTORS
330
47
102
}
330
47
100
AcDbScale
 70
     0
300
1/16" = 1'-0"
140
0.0625
141
12.0
290
     0
  0
SCALE
  5
5D
102
{ACAD_REACTORS
330
47
102
}
330
47
100
AcDbScale
 70
     0
300
3/32" = 1'-0"
140
0.09375
141
12.0
290
     0
  0
SCALE
  5
5E
102
{ACAD_REACTORS
330
47
102
}
330
47
100
AcDbScale
 70
     0
300
1/8" = 1'-0"
140
0.125
141
12.0
290
     0
  0
SCALE
  5
5F
102
{ACAD_REACTORS
330
47
102
}
330
47
100
AcDbScale
 70
     0
300
3/16" = 1'-0"
140
0.1875
141
12.0
290
     0
  0
SCALE
  5
60
102
{ACAD_REACTORS
330
47
102
}
330
47
100
AcDbScale
 70
     0
300
1/4" = 1'-0"
140
0.25
141
12.0
290
     0
  0
SCALE
  5
61
102
{ACAD_REACTORS
330
47
102
}
330
47
100
AcDbScale
 70
     0
300
3/8" = 1'-0"
140
0.375
141
12.0
290
     0
  0
SCALE
  5
62
102
{ACAD_REACTORS
330
47
102
}
330
47
100
AcDbScale
 70
     0
300
1/2" = 1'-0"
140
0.5
141
12.0
290
     0
  0
SCALE
  5
63
102
{ACAD_REACTORS
330
47
102
}
330
47
100
AcDbScale
 70
     0
300
3/4" = 1'-0"
140
0.75
141
12.0
290
     0
  0
SCALE
  5
64
102
{ACAD_REACTORS
330
47
102
}
330
47
100
AcDbScale
 70
     0
300
1" = 1'-0"
140
1.0
141
12.0
290
     0
  0
SCALE
  5
65
102
{ACAD_REACTORS
330
47
102
}
330
47
100
AcDbScale
 70
     0
300
1-1/2" = 1'-0"
140
1.5
141
12.0
290
     0
  0
SCALE
  5
66
102
{ACAD_REACTORS
330
47
102
}
330
47
100
AcDbScale
 70
     0
300
3" = 1'-0"
140
3.0
141
12.0
290
     0
  0
SCALE
  5
67
102
{ACAD_REACTORS
330
47
102
}
330
47
100
AcDbScale
 70
     0
300
6" = 1'-0"
140
6.0
141
12.0
290
     0
  0
SCALE
  5
68
102
{ACAD_REACTORS
330
47
102
}
330
47
100
AcDbScale
 70
     0
300
1'-0" = 1'-0"
140
12.0
141
12.0
290
     0
  0
ENDSEC
  0
EOF
